ISO-10303-21;
HEADER;
FILE_DESCRIPTION(('STEP AP203'),'1');
FILE_NAME('standard_3_inox-l_10.stp','2022-08-29T06:00:40',('TraceParts'),('TraceParts S.A.'),'Spatial InterOp 3D',' ',' ');
FILE_SCHEMA(('CONFIG_CONTROL_DESIGN'));
ENDSEC;
DATA;
#1=DESIGN_CONTEXT('',#27,'design');
#2=APPLICATION_PROTOCOL_DEFINITION('INTERNATIONAL STANDARD','config_control_design',1994,#27);
#3=PRODUCT_CATEGORY_RELATIONSHIP('NONE','NONE',#28,#29);
#4=DATE_AND_TIME(#30,#31);
#5=DATE_TIME_ROLE('creation_date');
#6=DATE_TIME_ROLE('classification_date');
#7=PERSON_AND_ORGANIZATION_ROLE('creator');
#8=PERSON_AND_ORGANIZATION_ROLE('design_supplier');
#9=PERSON_AND_ORGANIZATION_ROLE('classification_officer');
#10=PERSON_AND_ORGANIZATION_ROLE('design_owner');
#11=APPROVAL_PERSON_ORGANIZATION(#32,#33,#34);
#12=APPROVAL_DATE_TIME(#4,#33);
#13=CC_DESIGN_APPROVAL(#33,(#35,#36,#37));
#14=CC_DESIGN_DATE_AND_TIME_ASSIGNMENT(#4,#5,(#37));
#15=CC_DESIGN_DATE_AND_TIME_ASSIGNMENT(#4,#6,(#35));
#16=CC_DESIGN_PERSON_AND_ORGANIZATION_ASSIGNMENT(#32,#10,(#38));
#17=CC_DESIGN_PERSON_AND_ORGANIZATION_ASSIGNMENT(#32,#7,(#37));
#18=CC_DESIGN_PERSON_AND_ORGANIZATION_ASSIGNMENT(#32,#7,(#36));
#19=CC_DESIGN_PERSON_AND_ORGANIZATION_ASSIGNMENT(#32,#8,(#36));
#20=CC_DESIGN_SECURITY_CLASSIFICATION(#35,(#36));
#21=CC_DESIGN_PERSON_AND_ORGANIZATION_ASSIGNMENT(#32,#9,(#35));
#22=SHAPE_DEFINITION_REPRESENTATION(#39,#40);
#23= (GEOMETRIC_REPRESENTATION_CONTEXT(3)GLOBAL_UNCERTAINTY_ASSIGNED_CONTEXT((#43))GLOBAL_UNIT_ASSIGNED_CONTEXT((#45,#46,#47))REPRESENTATION_CONTEXT('NONE','WORKSPACE'));
#27=APPLICATION_CONTEXT('CONFIGURATION CONTROLLED 3D DESIGNS OF MECHANICAL PARTS AND ASSEMBLIES');
#28=PRODUCT_CATEGORY('part','NONE');
#29=PRODUCT_RELATED_PRODUCT_CATEGORY('detail',' ',(#38));
#30=CALENDAR_DATE(2022,29,7);
#31=LOCAL_TIME(8,0,40.0,#49);
#32=PERSON_AND_ORGANIZATION(#50,#51);
#33=APPROVAL(#52,'SOLID MODEL');
#34=APPROVAL_ROLE('APPROVED');
#35=SECURITY_CLASSIFICATION('','',#53);
#36=PRODUCT_DEFINITION_FORMATION_WITH_SPECIFIED_SOURCE(' ','NONE',#38,.NOT_KNOWN.);
#37=PRODUCT_DEFINITION('','NONE',#36,#1);
#38=PRODUCT('1','','PART--DESC',(#54));
#39=PRODUCT_DEFINITION_SHAPE('NONE','NONE',#37);
#40=ADVANCED_BREP_SHAPE_REPRESENTATION('1',(#55,#56),#23);
#43=UNCERTAINTY_MEASURE_WITH_UNIT(LENGTH_MEASURE(1.0E-06),#45,'','');
#45= (CONVERSION_BASED_UNIT('MILLIMETRE',#59)LENGTH_UNIT()NAMED_UNIT(#62));
#46= (NAMED_UNIT(#64)PLANE_ANGLE_UNIT()SI_UNIT($,.RADIAN.));
#47= (NAMED_UNIT(#64)SOLID_ANGLE_UNIT()SI_UNIT($,.STERADIAN.));
#49=COORDINATED_UNIVERSAL_TIME_OFFSET(1,0,.AHEAD.);
#50=PERSON('','UNSPECIFIED',$,$,$,$);
#51=ORGANIZATION('UNSPECIFIED','UNSPECIFIED','UNSPECIFIED');
#52=APPROVAL_STATUS('approved');
#53=SECURITY_CLASSIFICATION_LEVEL('unclassified');
#54=MECHANICAL_CONTEXT('',#27,'mechanical');
#55=MANIFOLD_SOLID_BREP('1',#70);
#56=AXIS2_PLACEMENT_3D('',#71,#72,#73);
#59=LENGTH_MEASURE_WITH_UNIT(LENGTH_MEASURE(1.0),#74);
#62=DIMENSIONAL_EXPONENTS(1.0,0.0,0.0,0.0,0.0,0.0,0.0);
#64=DIMENSIONAL_EXPONENTS(0.0,0.0,0.0,0.0,0.0,0.0,0.0);
#70=CLOSED_SHELL('',(#75,#76,#77,#78,#79,#80,#81,#82,#83,#84));
#71=CARTESIAN_POINT('',(0.0,0.0,0.0));
#72=DIRECTION('',(0.0,0.0,1.0));
#73=DIRECTION('',(1.0,0.0,0.0));
#74= (NAMED_UNIT(#62)LENGTH_UNIT()SI_UNIT(.MILLI.,.METRE.));
#75=ADVANCED_FACE('',(#86),#87,.T.);
#76=ADVANCED_FACE('',(#88),#89,.T.);
#77=ADVANCED_FACE('',(#90),#91,.T.);
#78=ADVANCED_FACE('',(#92),#93,.T.);
#79=ADVANCED_FACE('',(#94),#95,.T.);
#80=ADVANCED_FACE('',(#96),#97,.T.);
#81=ADVANCED_FACE('',(#98),#99,.T.);
#82=ADVANCED_FACE('',(#100),#101,.T.);
#83=ADVANCED_FACE('',(#102),#103,.T.);
#84=ADVANCED_FACE('',(#104),#105,.F.);
#86=FACE_OUTER_BOUND('',#106,.T.);
#87=PLANE('',#107);
#88=FACE_OUTER_BOUND('',#108,.T.);
#89=PLANE('',#109);
#90=FACE_OUTER_BOUND('',#110,.T.);
#91=PLANE('',#111);
#92=FACE_OUTER_BOUND('',#112,.T.);
#93=PLANE('',#113);
#94=FACE_OUTER_BOUND('',#114,.T.);
#95=PLANE('',#115);
#96=FACE_OUTER_BOUND('',#116,.T.);
#97=PLANE('',#117);
#98=FACE_OUTER_BOUND('',#118,.T.);
#99=PLANE('',#119);
#100=FACE_OUTER_BOUND('',#120,.T.);
#101=PLANE('',#121);
#102=FACE_OUTER_BOUND('',#122,.T.);
#103=PLANE('',#123);
#104=FACE_OUTER_BOUND('',#124,.T.);
#105=PLANE('',#125);
#106=EDGE_LOOP('',(#126,#127,#128,#129));
#107=AXIS2_PLACEMENT_3D('',#130,#131,#132);
#108=EDGE_LOOP('',(#133,#134,#135,#136));
#109=AXIS2_PLACEMENT_3D('',#137,#138,#139);
#110=EDGE_LOOP('',(#140,#141,#142,#143));
#111=AXIS2_PLACEMENT_3D('',#144,#145,#146);
#112=EDGE_LOOP('',(#147,#148,#149,#150));
#113=AXIS2_PLACEMENT_3D('',#151,#152,#153);
#114=EDGE_LOOP('',(#154,#155,#156,#157));
#115=AXIS2_PLACEMENT_3D('',#158,#159,#160);
#116=EDGE_LOOP('',(#161,#162,#163,#164));
#117=AXIS2_PLACEMENT_3D('',#165,#166,#167);
#118=EDGE_LOOP('',(#168,#169,#170,#171));
#119=AXIS2_PLACEMENT_3D('',#172,#173,#174);
#120=EDGE_LOOP('',(#175,#176,#177,#178));
#121=AXIS2_PLACEMENT_3D('',#179,#180,#181);
#122=EDGE_LOOP('',(#182,#183,#184,#185,#186,#187,#188,#189));
#123=AXIS2_PLACEMENT_3D('',#190,#191,#192);
#124=EDGE_LOOP('',(#193,#194,#195,#196,#197,#198,#199,#200));
#125=AXIS2_PLACEMENT_3D('',#201,#202,#203);
#126=ORIENTED_EDGE('',*,*,#204,.T.);
#127=ORIENTED_EDGE('',*,*,#205,.F.);
#128=ORIENTED_EDGE('',*,*,#206,.T.);
#129=ORIENTED_EDGE('',*,*,#207,.T.);
#130=CARTESIAN_POINT('',(-52.2,50.0,0.0));
#131=DIRECTION('',(0.0,1.0,-0.0));
#132=DIRECTION('',(-1.0,0.0,0.0));
#133=ORIENTED_EDGE('',*,*,#208,.T.);
#134=ORIENTED_EDGE('',*,*,#209,.F.);
#135=ORIENTED_EDGE('',*,*,#210,.T.);
#136=ORIENTED_EDGE('',*,*,#205,.T.);
#137=CARTESIAN_POINT('',(-44.7,30.0,0.0));
#138=DIRECTION('',(1.0,0.0,0.0));
#139=DIRECTION('',(0.0,1.0,0.0));
#140=ORIENTED_EDGE('',*,*,#211,.T.);
#141=ORIENTED_EDGE('',*,*,#212,.F.);
#142=ORIENTED_EDGE('',*,*,#213,.T.);
#143=ORIENTED_EDGE('',*,*,#209,.T.);
#144=CARTESIAN_POINT('',(0.0,10.0,0.0));
#145=DIRECTION('',(1.1921857982552E-16,1.0,-0.0));
#146=DIRECTION('',(-1.0,1.1921857982552E-16,0.0));
#147=ORIENTED_EDGE('',*,*,#214,.T.);
#148=ORIENTED_EDGE('',*,*,#215,.F.);
#149=ORIENTED_EDGE('',*,*,#216,.T.);
#150=ORIENTED_EDGE('',*,*,#212,.T.);
#151=CARTESIAN_POINT('',(44.7,30.0,0.0));
#152=DIRECTION('',(-1.0,0.0,0.0));
#153=DIRECTION('',(0.0,-1.0,0.0));
#154=ORIENTED_EDGE('',*,*,#217,.T.);
#155=ORIENTED_EDGE('',*,*,#218,.F.);
#156=ORIENTED_EDGE('',*,*,#219,.T.);
#157=ORIENTED_EDGE('',*,*,#215,.T.);
#158=CARTESIAN_POINT('',(52.2,50.0,0.0));
#159=DIRECTION('',(0.0,1.0,-0.0));
#160=DIRECTION('',(-1.0,0.0,0.0));
#161=ORIENTED_EDGE('',*,*,#220,.T.);
#162=ORIENTED_EDGE('',*,*,#221,.F.);
#163=ORIENTED_EDGE('',*,*,#222,.T.);
#164=ORIENTED_EDGE('',*,*,#218,.T.);
#165=CARTESIAN_POINT('',(59.7,25.0,0.0));
#166=DIRECTION('',(1.0,0.0,0.0));
#167=DIRECTION('',(0.0,1.0,0.0));
#168=ORIENTED_EDGE('',*,*,#223,.T.);
#169=ORIENTED_EDGE('',*,*,#224,.F.);
#170=ORIENTED_EDGE('',*,*,#225,.T.);
#171=ORIENTED_EDGE('',*,*,#221,.T.);
#172=CARTESIAN_POINT('',(0.0,0.0,0.0));
#173=DIRECTION('',(-1.22464679914735E-16,-1.0,0.0));
#174=DIRECTION('',(1.0,-1.22464679914735E-16,0.0));
#175=ORIENTED_EDGE('',*,*,#226,.T.);
#176=ORIENTED_EDGE('',*,*,#207,.F.);
#177=ORIENTED_EDGE('',*,*,#227,.T.);
#178=ORIENTED_EDGE('',*,*,#224,.T.);
#179=CARTESIAN_POINT('',(-59.7,25.0,0.0));
#180=DIRECTION('',(-1.0,0.0,0.0));
#181=DIRECTION('',(0.0,-1.0,0.0));
#182=ORIENTED_EDGE('',*,*,#204,.F.);
#183=ORIENTED_EDGE('',*,*,#226,.F.);
#184=ORIENTED_EDGE('',*,*,#223,.F.);
#185=ORIENTED_EDGE('',*,*,#220,.F.);
#186=ORIENTED_EDGE('',*,*,#217,.F.);
#187=ORIENTED_EDGE('',*,*,#214,.F.);
#188=ORIENTED_EDGE('',*,*,#211,.F.);
#189=ORIENTED_EDGE('',*,*,#208,.F.);
#190=CARTESIAN_POINT('',(1.99313807911346E-15,17.4164278892073,10.0));
#191=DIRECTION('',(0.0,0.0,1.0));
#192=DIRECTION('',(1.0,0.0,0.0));
#193=ORIENTED_EDGE('',*,*,#227,.F.);
#194=ORIENTED_EDGE('',*,*,#206,.F.);
#195=ORIENTED_EDGE('',*,*,#210,.F.);
#196=ORIENTED_EDGE('',*,*,#213,.F.);
#197=ORIENTED_EDGE('',*,*,#216,.F.);
#198=ORIENTED_EDGE('',*,*,#219,.F.);
#199=ORIENTED_EDGE('',*,*,#222,.F.);
#200=ORIENTED_EDGE('',*,*,#225,.F.);
#201=CARTESIAN_POINT('',(1.99313807911346E-15,17.4164278892073,0.0));
#202=DIRECTION('',(0.0,0.0,1.0));
#203=DIRECTION('',(1.0,0.0,0.0));
#204=EDGE_CURVE('',#228,#229,#230,.T.);
#205=EDGE_CURVE('',#231,#229,#232,.T.);
#206=EDGE_CURVE('',#231,#233,#234,.T.);
#207=EDGE_CURVE('',#233,#228,#235,.T.);
#208=EDGE_CURVE('',#229,#236,#237,.T.);
#209=EDGE_CURVE('',#238,#236,#239,.T.);
#210=EDGE_CURVE('',#238,#231,#240,.T.);
#211=EDGE_CURVE('',#236,#241,#242,.T.);
#212=EDGE_CURVE('',#243,#241,#244,.T.);
#213=EDGE_CURVE('',#243,#238,#245,.T.);
#214=EDGE_CURVE('',#241,#246,#247,.T.);
#215=EDGE_CURVE('',#248,#246,#249,.T.);
#216=EDGE_CURVE('',#248,#243,#250,.T.);
#217=EDGE_CURVE('',#246,#251,#252,.T.);
#218=EDGE_CURVE('',#253,#251,#254,.T.);
#219=EDGE_CURVE('',#253,#248,#255,.T.);
#220=EDGE_CURVE('',#251,#256,#257,.T.);
#221=EDGE_CURVE('',#258,#256,#259,.T.);
#222=EDGE_CURVE('',#258,#253,#260,.T.);
#223=EDGE_CURVE('',#256,#261,#262,.T.);
#224=EDGE_CURVE('',#263,#261,#264,.T.);
#225=EDGE_CURVE('',#263,#258,#265,.T.);
#226=EDGE_CURVE('',#261,#228,#266,.T.);
#227=EDGE_CURVE('',#233,#263,#267,.T.);
#228=VERTEX_POINT('',#268);
#229=VERTEX_POINT('',#269);
#230=LINE('',#270,#271);
#231=VERTEX_POINT('',#272);
#232=LINE('',#273,#274);
#233=VERTEX_POINT('',#275);
#234=LINE('',#276,#277);
#235=LINE('',#278,#279);
#236=VERTEX_POINT('',#280);
#237=LINE('',#281,#282);
#238=VERTEX_POINT('',#283);
#239=LINE('',#284,#285);
#240=LINE('',#286,#287);
#241=VERTEX_POINT('',#288);
#242=LINE('',#289,#290);
#243=VERTEX_POINT('',#291);
#244=LINE('',#292,#293);
#245=LINE('',#294,#295);
#246=VERTEX_POINT('',#296);
#247=LINE('',#297,#298);
#248=VERTEX_POINT('',#299);
#249=LINE('',#300,#301);
#250=LINE('',#302,#303);
#251=VERTEX_POINT('',#304);
#252=LINE('',#305,#306);
#253=VERTEX_POINT('',#307);
#254=LINE('',#308,#309);
#255=LINE('',#310,#311);
#256=VERTEX_POINT('',#312);
#257=LINE('',#313,#314);
#258=VERTEX_POINT('',#315);
#259=LINE('',#316,#317);
#260=LINE('',#318,#319);
#261=VERTEX_POINT('',#320);
#262=LINE('',#321,#322);
#263=VERTEX_POINT('',#323);
#264=LINE('',#324,#325);
#265=LINE('',#326,#327);
#266=LINE('',#328,#329);
#267=LINE('',#330,#331);
#268=CARTESIAN_POINT('',(-59.7,50.0,10.0));
#269=CARTESIAN_POINT('',(-44.7,50.0,10.0));
#270=CARTESIAN_POINT('',(-44.7,50.0,10.0));
#271=VECTOR('',#332,1.0);
#272=CARTESIAN_POINT('',(-44.7,50.0,0.0));
#273=CARTESIAN_POINT('',(-44.7,50.0,0.0));
#274=VECTOR('',#333,1.0);
#275=CARTESIAN_POINT('',(-59.7,50.0,0.0));
#276=CARTESIAN_POINT('',(-44.7,50.0,0.0));
#277=VECTOR('',#334,1.0);
#278=CARTESIAN_POINT('',(-59.7,50.0,0.0));
#279=VECTOR('',#335,1.0);
#280=CARTESIAN_POINT('',(-44.7,10.0,10.0));
#281=CARTESIAN_POINT('',(-44.7,10.0,10.0));
#282=VECTOR('',#336,1.0);
#283=CARTESIAN_POINT('',(-44.7,10.0,0.0));
#284=CARTESIAN_POINT('',(-44.7,10.0,0.0));
#285=VECTOR('',#337,1.0);
#286=CARTESIAN_POINT('',(-44.7,10.0,0.0));
#287=VECTOR('',#338,1.0);
#288=CARTESIAN_POINT('',(44.7,9.99999999999999,10.0));
#289=CARTESIAN_POINT('',(44.7,9.99999999999999,10.0));
#290=VECTOR('',#339,1.0);
#291=CARTESIAN_POINT('',(44.7,9.99999999999999,0.0));
#292=CARTESIAN_POINT('',(44.7,9.99999999999999,0.0));
#293=VECTOR('',#340,1.0);
#294=CARTESIAN_POINT('',(44.7,9.99999999999999,0.0));
#295=VECTOR('',#341,1.0);
#296=CARTESIAN_POINT('',(44.7,50.0,10.0));
#297=CARTESIAN_POINT('',(44.7,50.0,10.0));
#298=VECTOR('',#342,1.0);
#299=CARTESIAN_POINT('',(44.7,50.0,0.0));
#300=CARTESIAN_POINT('',(44.7,50.0,0.0));
#301=VECTOR('',#343,1.0);
#302=CARTESIAN_POINT('',(44.7,50.0,0.0));
#303=VECTOR('',#344,1.0);
#304=CARTESIAN_POINT('',(59.7,50.0,10.0));
#305=CARTESIAN_POINT('',(59.7,50.0,10.0));
#306=VECTOR('',#345,1.0);
#307=CARTESIAN_POINT('',(59.7,50.0,0.0));
#308=CARTESIAN_POINT('',(59.7,50.0,0.0));
#309=VECTOR('',#346,1.0);
#310=CARTESIAN_POINT('',(59.7,50.0,0.0));
#311=VECTOR('',#347,1.0);
#312=CARTESIAN_POINT('',(59.7,-7.3111413909097E-15,10.0));
#313=CARTESIAN_POINT('',(59.7,-7.3111413909097E-15,10.0));
#314=VECTOR('',#348,1.0);
#315=CARTESIAN_POINT('',(59.7,-7.3111413909097E-15,0.0));
#316=CARTESIAN_POINT('',(59.7,-7.3111413909097E-15,0.0));
#317=VECTOR('',#349,1.0);
#318=CARTESIAN_POINT('',(59.7,-7.3111413909097E-15,0.0));
#319=VECTOR('',#350,1.0);
#320=CARTESIAN_POINT('',(-59.7,7.105427357601E-15,10.0));
#321=CARTESIAN_POINT('',(-59.7,7.3111413909097E-15,10.0));
#322=VECTOR('',#351,1.0);
#323=CARTESIAN_POINT('',(-59.7,7.105427357601E-15,0.0));
#324=CARTESIAN_POINT('',(-59.7,7.105427357601E-15,0.0));
#325=VECTOR('',#352,1.0);
#326=CARTESIAN_POINT('',(-59.7,7.3111413909097E-15,0.0));
#327=VECTOR('',#353,1.0);
#328=CARTESIAN_POINT('',(-59.7,50.0,10.0));
#329=VECTOR('',#354,1.0);
#330=CARTESIAN_POINT('',(-59.7,50.0,0.0));
#331=VECTOR('',#355,1.0);
#332=DIRECTION('',(1.0,0.0,0.0));
#333=DIRECTION('',(0.0,0.0,1.0));
#334=DIRECTION('',(-1.0,0.0,0.0));
#335=DIRECTION('',(0.0,0.0,1.0));
#336=DIRECTION('',(-0.0,-1.0,-0.0));
#337=DIRECTION('',(0.0,0.0,1.0));
#338=DIRECTION('',(0.0,1.0,0.0));
#339=DIRECTION('',(1.0,-1.1921857982552E-16,0.0));
#340=DIRECTION('',(0.0,0.0,1.0));
#341=DIRECTION('',(-1.0,1.1921857982552E-16,0.0));
#342=DIRECTION('',(0.0,1.0,0.0));
#343=DIRECTION('',(0.0,0.0,1.0));
#344=DIRECTION('',(0.0,-1.0,0.0));
#345=DIRECTION('',(1.0,0.0,0.0));
#346=DIRECTION('',(0.0,0.0,1.0));
#347=DIRECTION('',(-1.0,0.0,0.0));
#348=DIRECTION('',(-0.0,-1.0,-0.0));
#349=DIRECTION('',(0.0,0.0,1.0));
#350=DIRECTION('',(0.0,1.0,0.0));
#351=DIRECTION('',(-1.0,1.22464679914735E-16,0.0));
#352=DIRECTION('',(0.0,0.0,1.0));
#353=DIRECTION('',(1.0,-1.22464679914735E-16,0.0));
#354=DIRECTION('',(0.0,1.0,0.0));
#355=DIRECTION('',(0.0,-1.0,0.0));
ENDSEC;
END-ISO-10303-21;
